  0
SECTION
  2
HEADER
  9
$ACADVER
  1
AC1014
  9
$ACADMAINTVER
 70
     9
  9
$DWGCODEPAGE
  3
ANSI_932
  9
$INSBASE
 10
0.0
 20
0.0
 30
0.0
  9
$EXTMIN
 10
-143.9523036661844
 20
-80.68502690534783
 30
0.0
  9
$EXTMAX
 10
150.9219076094403
 20
80.68502690534783
 30
0.0
  9
$LIMMIN
 10
-74.25
 20
-52.5
  9
$LIMMAX
 10
74.25
 20
52.5
  9
$ORTHOMODE
 70
     0
  9
$REGENMODE
 70
     1
  9
$FILLMODE
 70
     1
  9
$QTEXTMODE
 70
     0
  9
$MIRRTEXT
 70
     1
  9
$DRAGMODE
 70
     2
  9
$LTSCALE
 40
0.5
  9
$OSMODE
 70
    37
  9
$ATTMODE
 70
     1
  9
$TEXTSIZE
 40
0.2
  9
$TRACEWID
 40
0.05
  9
$TEXTSTYLE
  7
STANDARD
  9
$CLAYER
  8
0
  9
$CELTYPE
  6
BYLAYER
  9
$CECOLOR
 62
   256
  9
$CELTSCALE
 40
1.0
  9
$DELOBJ
 70
     1
  9
$DISPSILH
 70
     0
  9
$DIMSCALE
 40
1.0
  9
$DIMASZ
 40
1.25
  9
$DIMEXO
 40
0.0625
  9
$DIMDLI
 40
0.38
  9
$DIMRND
 40
0.0
  9
$DIMDLE
 40
0.0
  9
$DIMEXE
 40
0.18
  9
$DIMTP
 40
0.0
  9
$DIMTM
 40
0.0
  9
$DIMTXT
 40
0.18
  9
$DIMCEN
 40
0.09
  9
$DIMTSZ
 40
0.0
  9
$DIMTOL
 70
     0
  9
$DIMLIM
 70
     0
  9
$DIMTIH
 70
     1
  9
$DIMTOH
 70
     1
  9
$DIMSE1
 70
     0
  9
$DIMSE2
 70
     0
  9
$DIMTAD
 70
     3
  9
$DIMZIN
 70
     0
  9
$DIMBLK
  1

  9
$DIMASO
 70
     1
  9
$DIMSHO
 70
     1
  9
$DIMPOST
  1

  9
$DIMAPOST
  1

  9
$DIMALT
 70
     0
  9
$DIMALTD
 70
     2
  9
$DIMALTF
 40
25.4
  9
$DIMLFAC
 40
1.0
  9
$DIMTOFL
 70
     0
  9
$DIMTVP
 40
0.0
  9
$DIMTIX
 70
     0
  9
$DIMSOXD
 70
     0
  9
$DIMSAH
 70
     0
  9
$DIMBLK1
  1

  9
$DIMBLK2
  1

  9
$DIMSTYLE
  2
STANDARD
  9
$DIMCLRD
 70
     0
  9
$DIMCLRE
 70
     0
  9
$DIMCLRT
 70
     0
  9
$DIMTFAC
 40
1.0
  9
$DIMGAP
 40
0.09
  9
$DIMJUST
 70
     0
  9
$DIMSD1
 70
     0
  9
$DIMSD2
 70
     0
  9
$DIMTOLJ
 70
     1
  9
$DIMTZIN
 70
     0
  9
$DIMALTZ
 70
     0
  9
$DIMALTTZ
 70
     0
  9
$DIMFIT
 70
     3
  9
$DIMUPT
 70
     0
  9
$DIMUNIT
 70
     2
  9
$DIMDEC
 70
     4
  9
$DIMTDEC
 70
     4
  9
$DIMALTU
 70
     2
  9
$DIMALTTD
 70
     2
  9
$DIMTXSTY
  7
STANDARD
  9
$DIMAUNIT
 70
     0
  9
$LUNITS
 70
     2
  9
$LUPREC
 70
     4
  9
$SKETCHINC
 40
0.1
  9
$FILLETRAD
 40
0.5
  9
$AUNITS
 70
     0
  9
$AUPREC
 70
     0
  9
$MENU
  1
.
  9
$ELEVATION
 40
0.0
  9
$PELEVATION
 40
0.0
  9
$THICKNESS
 40
0.0
  9
$LIMCHECK
 70
     0
  9
$CHAMFERA
 40
0.5
  9
$CHAMFERB
 40
0.5
  9
$CHAMFERC
 40
1.0
  9
$CHAMFERD
 40
0.0
  9
$SKPOLY
 70
     0
  9
$TDCREATE
 40
2456337.411440197
  9
$TDUPDATE
 40
2456337.411440209
  9
$TDINDWG
 40
0.0000000116
  9
$TDUSRTIMER
 40
0.0000000116
  9
$USRTIMER
 70
     1
  9
$ANGBASE
 50
0.0
  9
$ANGDIR
 70
     0
  9
$PDMODE
 70
     0
  9
$PDSIZE
 40
1.0
  9
$PLINEWID
 40
0.0
  9
$COORDS
 70
     1
  9
$SPLFRAME
 70
     0
  9
$SPLINETYPE
 70
     6
  9
$SPLINESEGS
 70
     8
  9
$ATTDIA
 70
     0
  9
$ATTREQ
 70
     1
  9
$HANDLING
 70
     1
  9
$HANDSEED
  5
133
  9
$SURFTAB1
 70
     6
  9
$SURFTAB2
 70
     6
  9
$SURFTYPE
 70
     6
  9
$SURFU
 70
     6
  9
$SURFV
 70
     6
  9
$UCSNAME
  2

  9
$UCSORG
 10
0.0
 20
0.0
 30
0.0
  9
$UCSXDIR
 10
1.0
 20
0.0
 30
0.0
  9
$UCSYDIR
 10
0.0
 20
1.0
 30
0.0
  9
$PUCSNAME
  2

  9
$PUCSORG
 10
0.0
 20
0.0
 30
0.0
  9
$PUCSXDIR
 10
1.0
 20
0.0
 30
0.0
  9
$PUCSYDIR
 10
0.0
 20
1.0
 30
0.0
  9
$USERI1
 70
     0
  9
$USERI2
 70
     0
  9
$USERI3
 70
     0
  9
$USERI4
 70
     0
  9
$USERI5
 70
     0
  9
$USERR1
 40
0.0
  9
$USERR2
 40
0.0
  9
$USERR3
 40
0.0
  9
$USERR4
 40
0.0
  9
$USERR5
 40
0.0
  9
$WORLDVIEW
 70
     1
  9
$SHADEDGE
 70
     3
  9
$SHADEDIF
 70
    70
  9
$TILEMODE
 70
     1
  9
$MAXACTVP
 70
    64
  9
$PINSBASE
 10
0.0
 20
0.0
 30
0.0
  9
$PLIMCHECK
 70
     0
  9
$PEXTMIN
 10
1.000000000000000E+20
 20
1.000000000000000E+20
 30
1.000000000000000E+20
  9
$PEXTMAX
 10
-1.000000000000000E+20
 20
-1.000000000000000E+20
 30
-1.000000000000000E+20
  9
$PLIMMIN
 10
0.0
 20
0.0
  9
$PLIMMAX
 10
12.0
 20
9.0
  9
$UNITMODE
 70
     0
  9
$VISRETAIN
 70
     0
  9
$PLINEGEN
 70
     1
  9
$PSLTSCALE
 70
     0
  9
$TREEDEPTH
 70
  3020
  9
$PICKSTYLE
 70
     1
  9
$CMLSTYLE
  2
STANDARD
  9
$CMLJUST
 70
     0
  9
$CMLSCALE
 40
1.0
  9
$PROXYGRAPHICS
 70
     0
  9
$MEASUREMENT
 70
     1
  0
ENDSEC
  0
SECTION
  2
CLASSES
  0
CLASS
  1
ACDBDICTIONARYWDFLT
  2
AcDbDictionaryWithDefault
  3
ObjectDBX Classes
 90
        0
280
     0
281
     0
  0
CLASS
  1
XRECORD
  2
AcDbXrecord
  3
AutoCAD 2000
 90
        0
280
     0
281
     0
  0
CLASS
  1
LWPOLYLINE
  2
AcDbPolyline
  3
AutoCAD 2000
 90
        0
280
     0
281
     1
  0
CLASS
  1
HATCH
  2
AcDbHatch
  3
AutoCAD 2000
 90
        0
280
     0
281
     1
  0
CLASS
  1
ACDBPLACEHOLDER
  2
AcDbPlaceHolder
  3
ObjectDBX Classes
 90
        0
280
     0
281
     0
  0
CLASS
  1
LAYOUT
  2
AcDbLayout
  3
ObjectDBX Classes
 90
        0
280
     0
281
     0
  0
ENDSEC
  0
SECTION
  2
TABLES
  0
TABLE
  2
VPORT
  5
8
330
0
100
AcDbSymbolTable
 70
     1
  0
VPORT
  5
29
330
8
100
AcDbSymbolTableRecord
100
AcDbViewportTableRecord
  2
*ACTIVE
 70
     0
 10
0.0
 20
0.0
 11
1.0
 21
1.0
 12
0.0
 22
0.0
 13
0.0
 23
0.0
 14
0.5
 24
0.5
 15
0.5
 25
0.5
 16
0.0
 26
0.0
 36
1.0
 17
1.289563876389888
 27
2.031960654848891
 37
0.0
 40
50.72061855974478
 41
1.888363131979687
 42
50.0
 43
0.0
 44
0.0
 50
0.0
 51
0.0
 71
     0
 72
  1000
 73
     1
 74
     1
 75
     0
 76
     0
 77
     0
 78
     0
  0
ENDTAB
  0
TABLE
  2
LTYPE
  5
5
330
0
100
AcDbSymbolTable
 70
    28
  0
LTYPE
  5
14
330
5
100
AcDbSymbolTableRecord
100
AcDbLinetypeTableRecord
  2
BYBLOCK
 70
     0
  3

 72
    65
 73
     0
 40
0.0
  0
LTYPE
  5
15
330
5
100
AcDbSymbolTableRecord
100
AcDbLinetypeTableRecord
  2
BYLAYER
 70
     0
  3

 72
    65
 73
     0
 40
0.0
  0
LTYPE
  5
16
330
5
100
AcDbSymbolTableRecord
100
AcDbLinetypeTableRecord
  2
CONTINUOUS
 70
     0
  3
Solid line
 72
    65
 73
     0
 40
0.0
  0
LTYPE
  5
2B
330
5
100
AcDbSymbolTableRecord
100
AcDbLinetypeTableRecord
  2
HIDDENX2
 70
     0
  3
CADPAC LINETYPE
 72
    65
 73
     2
 40
4.242424242424249
 49
3.181818181818187
 74
     0
 49
-1.060606060606062
 74
     0
  0
LTYPE
  5
2C
330
5
100
AcDbSymbolTableRecord
100
AcDbLinetypeTableRecord
  2
HIDDEN
 70
     0
  3
CADPAC LINETYPE
 72
    65
 73
     2
 40
3.181818181818187
 49
2.121212121212125
 74
     0
 49
-1.060606060606062
 74
     0
  0
LTYPE
  5
2D
330
5
100
AcDbSymbolTableRecord
100
AcDbLinetypeTableRecord
  2
HIDDEN2
 70
     0
  3
CADPAC LINETYPE
 72
    65
 73
     2
 40
2.651515151515156
 49
1.590909090909094
 74
     0
 49
-1.060606060606062
 74
     0
  0
LTYPE
  5
2E
330
5
100
AcDbSymbolTableRecord
100
AcDbLinetypeTableRecord
  2
DASHED
 70
     0
  3
CADPAC LINETYPE
 72
    65
 73
     2
 40
2.969696969696969
 49
2.121212121212125
 74
     0
 49
-0.8484848484848442
 74
     0
  0
LTYPE
  5
2F
330
5
100
AcDbSymbolTableRecord
100
AcDbLinetypeTableRecord
  2
DASHED2
 70
     0
  3
CADPAC LINETYPE
 72
    65
 73
     2
 40
1.909090909090907
 49
1.272727272727252
 74
     0
 49
-0.6363636363636545
 74
     0
  0
LTYPE
  5
30
330
5
100
AcDbSymbolTableRecord
100
AcDbLinetypeTableRecord
  2
DASHEDX2
 70
     0
  3
CADPAC LINETYPE
 72
    65
 73
     2
 40
5.090909090909065
 49
4.242424242424221
 74
     0
 49
-0.8484848484848442
 74
     0
  0
LTYPE
  5
31
330
5
100
AcDbSymbolTableRecord
100
AcDbLinetypeTableRecord
  2
DOTX2
 70
     0
  3
CADPAC LINETYPE
 72
    65
 73
     2
 40
1.856060606060623
 49
0.0
 74
     0
 49
-1.856060606060623
 74
     0
  0
LTYPE
  5
32
330
5
100
AcDbSymbolTableRecord
100
AcDbLinetypeTableRecord
  2
DOT
 70
     0
  3
CADPAC LINETYPE
 72
    65
 73
     2
 40
1.484848484848499
 49
0.0
 74
     0
 49
-1.484848484848499
 74
     0
  0
LTYPE
  5
33
330
5
100
AcDbSymbolTableRecord
100
AcDbLinetypeTableRecord
  2
DOT2
 70
     0
  3
CADPAC LINETYPE
 72
    65
 73
     2
 40
1.113636363636374
 49
0.0
 74
     0
 49
-1.113636363636374
 74
     0
  0
LTYPE
  5
34
330
5
100
AcDbSymbolTableRecord
100
AcDbLinetypeTableRecord
  2
CENTERX2
 70
     0
  3
CADPAC LINETYPE
 72
    65
 73
     4
 40
6.363636363636374
 49
2.651515151515156
 74
     0
 49
-1.325757575757578
 74
     0
 49
1.060606060606062
 74
     0
 49
-1.325757575757578
 74
     0
  0
LTYPE
  5
35
330
5
100
AcDbSymbolTableRecord
100
AcDbLinetypeTableRecord
  2
CENTER
 70
     0
  3
CADPAC LINETYPE
 72
    65
 73
     4
 40
4.878787878787887
 49
2.121212121212125
 74
     0
 49
-1.060606060606062
 74
     0
 49
0.6363636363636374
 74
     0
 49
-1.060606060606062
 74
     0
  0
LTYPE
  5
36
330
5
100
AcDbSymbolTableRecord
100
AcDbLinetypeTableRecord
  2
CENTER2
 70
     0
  3
CADPAC LINETYPE
 72
    65
 73
     4
 40
3.393939393939399
 49
1.590909090909094
 74
     0
 49
-0.7954545454545468
 74
     0
 49
0.2121212121212125
 74
     0
 49
-0.7954545454545468
 74
     0
  0
LTYPE
  5
37
330
5
100
AcDbSymbolTableRecord
100
AcDbLinetypeTableRecord
  2
DASHDOTX2
 70
     0
  3
CADPAC LINETYPE
 72
    65
 73
     4
 40
10.18181818181816
 49
5.090909090909094
 74
     0
 49
-1.696969696969688
 74
     0
 49
1.696969696969688
 74
     0
 49
-1.696969696969688
 74
     0
  0
LTYPE
  5
38
330
5
100
AcDbSymbolTableRecord
100
AcDbLinetypeTableRecord
  2
DASHDOT
 70
     0
  3
CADPAC LINETYPE
 72
    65
 73
     4
 40
5.090909090909065
 49
2.545454545454533
 74
     0
 49
-0.8484848484848442
 74
     0
 49
0.8484848484848442
 74
     0
 49
-0.8484848484848442
 74
     0
  0
LTYPE
  5
39
330
5
100
AcDbSymbolTableRecord
100
AcDbLinetypeTableRecord
  2
DASHDOT2
 70
     0
  3
CADPAC LINETYPE
 72
    65
 73
     4
 40
3.26666666666665
 49
1.909090909090899
 74
     0
 49
-0.6363636363636331
 74
     0
 49
0.0848484848484844
 74
     0
 49
-0.6363636363636331
 74
     0
  0
LTYPE
  5
3A
330
5
100
AcDbSymbolTableRecord
100
AcDbLinetypeTableRecord
  2
DIVIDEX2
 70
     0
  3
CADPAC LINETYPE
 72
    65
 73
     6
 40
13.57575757575754
 49
5.090909090909094
 74
     0
 49
-1.696969696969688
 74
     0
 49
1.696969696969688
 74
     0
 49
-1.696969696969688
 74
     0
 49
1.696969696969688
 74
     0
 49
-1.696969696969688
 74
     0
  0
LTYPE
  5
3B
330
5
100
AcDbSymbolTableRecord
100
AcDbLinetypeTableRecord
  2
DIVIDE
 70
     0
  3
CADPAC LINETYPE
 72
    65
 73
     6
 40
6.787878787878753
 49
2.545454545454533
 74
     0
 49
-0.8484848484848442
 74
     0
 49
0.8484848484848442
 74
     0
 49
-0.8484848484848442
 74
     0
 49
0.8484848484848442
 74
     0
 49
-0.8484848484848442
 74
     0
  0
LTYPE
  5
3C
330
5
100
AcDbSymbolTableRecord
100
AcDbLinetypeTableRecord
  2
DIVIDE2
 70
     0
  3
CADPAC LINETYPE
 72
    65
 73
     6
 40
5.090909090909065
 49
1.909090909090899
 74
     0
 49
-0.6363636363636331
 74
     0
 49
0.6363636363636331
 74
     0
 49
-0.6363636363636331
 74
     0
 49
0.6363636363636331
 74
     0
 49
-0.6363636363636331
 74
     0
  0
LTYPE
  5
3D
330
5
100
AcDbSymbolTableRecord
100
AcDbLinetypeTableRecord
  2
BORDERX2
 70
     0
  3
CADPAC LINETYPE
 72
    65
 73
     6
 40
9.280303030303045
 49
2.651515151515156
 74
     0
 49
-1.325757575757578
 74
     0
 49
2.651515151515156
 74
     0
 49
-1.325757575757578
 74
     0
 49
0.0
 74
     0
 49
-1.325757575757578
 74
     0
  0
LTYPE
  5
3E
330
5
100
AcDbSymbolTableRecord
100
AcDbLinetypeTableRecord
  2
BORDER
 70
     0
  3
CADPAC LINETYPE
 72
    65
 73
     6
 40
7.424242424242436
 49
2.121212121212125
 74
     0
 49
-1.060606060606062
 74
     0
 49
2.121212121212125
 74
     0
 49
-1.060606060606062
 74
     0
 49
0.0
 74
     0
 49
-1.060606060606062
 74
     0
  0
LTYPE
  5
3F
330
5
100
AcDbSymbolTableRecord
100
AcDbLinetypeTableRecord
  2
BORDER2
 70
     0
  3
CADPAC LINETYPE
 72
    65
 73
     6
 40
5.51515151515153
 49
1.696969696969688
 74
     0
 49
-1.060606060606062
 74
     0
 49
0.6363636363636545
 74
     0
 49
-1.060606060606062
 74
     0
 49
0.0
 74
     0
 49
-1.060606060606062
 74
     0
  0
LTYPE
  5
40
330
5
100
AcDbSymbolTableRecord
100
AcDbLinetypeTableRecord
  2
PHANTOMX2
 70
     0
  3
CADPAC LINETYPE
 72
    65
 73
     6
 40
7.954545454545468
 49
2.651515151515156
 74
     0
 49
-1.060606060606062
 74
     0
 49
1.060606060606062
 74
     0
 49
-1.060606060606062
 74
     0
 49
1.060606060606062
 74
     0
 49
-1.060606060606062
 74
     0
  0
LTYPE
  5
41
330
5
100
AcDbSymbolTableRecord
100
AcDbLinetypeTableRecord
  2
PHANTOM
 70
     0
  3
CADPAC LINETYPE
 72
    65
 73
     6
 40
6.575757575757587
 49
2.121212121212125
 74
     0
 49
-1.060606060606062
 74
     0
 49
0.6363636363636374
 74
     0
 49
-1.060606060606062
 74
     0
 49
0.6363636363636374
 74
     0
 49
-1.060606060606062
 74
     0
  0
LTYPE
  5
42
330
5
100
AcDbSymbolTableRecord
100
AcDbLinetypeTableRecord
  2
PHANTOM2
 70
     0
  3
CADPAC LINETYPE
 72
    65
 73
     6
 40
5.62121212121213
 49
1.590909090909094
 74
     0
 49
-1.060606060606062
 74
     0
 49
0.424242424242425
 74
     0
 49
-1.060606060606062
 74
     0
 49
0.424242424242425
 74
     0
 49
-1.060606060606062
 74
     0
  0
LTYPE
  5
43
330
5
100
AcDbSymbolTableRecord
100
AcDbLinetypeTableRecord
  2
ACAD_ISO06W100
 70
     0
  3
CADPAC LINETYPE
 72
    65
 73
     8
 40
11.24242424242431
 49
5.090909090909094
 74
     0
 49
-1.060606060606062
 74
     0
 49
0.6363636363636545
 74
     0
 49
-1.060606060606062
 74
     0
 49
0.6363636363636545
 74
     0
 49
-1.060606060606062
 74
     0
 49
0.6363636363636545
 74
     0
 49
-1.060606060606062
 74
     0
  0
LTYPE
  5
44
330
5
100
AcDbSymbolTableRecord
100
AcDbLinetypeTableRecord
  2
ACAD_ISO13W100
 70
     0
  3
CADPAC LINETYPE
 72
    65
 73
     8
 40
8.484848484848499
 49
2.121212121212125
 74
     0
 49
-1.060606060606062
 74
     0
 49
2.121212121212125
 74
     0
 49
-1.060606060606062
 74
     0
 49
0.0
 74
     0
 49
-1.060606060606062
 74
     0
 49
0.0
 74
     0
 49
-1.060606060606062
 74
     0
  0
LTYPE
  5
45
330
5
100
AcDbSymbolTableRecord
100
AcDbLinetypeTableRecord
  2
ACAD_ISO14W100
 70
     0
  3
CADPAC LINETYPE
 72
    65
 73
     8
 40
6.363636363636374
 49
2.121212121212125
 74
     0
 49
-1.060606060606062
 74
     0
 49
0.0
 74
     0
 49
-1.060606060606062
 74
     0
 49
0.0
 74
     0
 49
-1.060606060606062
 74
     0
 49
0.0
 74
     0
 49
-1.060606060606062
 74
     0
  0
ENDTAB
  0
TABLE
  2
LAYER
  5
2
330
0
100
AcDbSymbolTable
 70
     2
  0
LAYER
  5
10
330
2
100
AcDbSymbolTableRecord
100
AcDbLayerTableRecord
  2
0
 70
     0
 62
     7
  6
CONTINUOUS
  0
LAYER
  5
46
330
2
100
AcDbSymbolTableRecord
100
AcDbLayerTableRecord
  2
LAYER0001
 70
     0
 62
     7
  6
CONTINUOUS
  0
ENDTAB
  0
TABLE
  2
STYLE
  5
3
330
0
100
AcDbSymbolTable
 70
     2
  0
STYLE
  5
11
330
3
100
AcDbSymbolTableRecord
100
AcDbTextStyleTableRecord
  2
STANDARD
 70
     0
 40
0.0
 41
1.0
 50
0.0
 71
     0
 42
0.2
  3
txt
  4

  0
STYLE
  5
5F
330
3
100
AcDbSymbolTableRecord
100
AcDbTextStyleTableRecord
  2
FDASTYLE0
 70
     0
 40
2.0
 41
0.8000000000000002
 50
0.0
 71
     0
 42
0.2
  3
txt.shx
  4
bigfont
  0
ENDTAB
  0
TABLE
  2
VIEW
  5
6
330
0
100
AcDbSymbolTable
 70
     0
  0
ENDTAB
  0
TABLE
  2
UCS
  5
7
330
0
100
AcDbSymbolTable
 70
     0
  0
ENDTAB
  0
TABLE
  2
APPID
  5
9
330
0
100
AcDbSymbolTable
 70
     2
  0
APPID
  5
12
330
9
100
AcDbSymbolTableRecord
100
AcDbRegAppTableRecord
  2
ACAD
 70
     0
  0
APPID
  5
2A
330
9
100
AcDbSymbolTableRecord
100
AcDbRegAppTableRecord
  2
DAFUSIONOUT
 70
     0
  0
ENDTAB
  0
TABLE
  2
DIMSTYLE
  5
A
330
0
100
AcDbSymbolTable
 70
     1
  0
DIMSTYLE
105
27
330
A
100
AcDbSymbolTableRecord
100
AcDbDimStyleTableRecord
  2
STANDARD
 70
     0
  3

  4

  5

  6

  7

 40
1.0
 41
0.18
 42
0.0625
 43
0.38
 44
0.18
 45
0.0
 46
0.0
 47
0.0
 48
0.0
140
0.18
141
0.09
142
0.0
143
25.4
144
1.0
145
0.0
146
1.0
147
0.09
 71
     0
 72
     0
 73
     1
 74
     1
 75
     0
 76
     0
 77
     0
 78
     0
170
     0
171
     2
172
     0
173
     0
174
     0
175
     0
176
     0
177
     0
178
     0
270
     2
271
     4
272
     4
273
     2
274
     2
340
11
275
     0
280
     0
281
     0
282
     0
283
     1
284
     0
285
     0
286
     0
287
     3
288
     0
  0
ENDTAB
  0
TABLE
  2
BLOCK_RECORD
  5
1
330
0
100
AcDbSymbolTable
 70
     6
  0
BLOCK_RECORD
  5
1F
330
1
100
AcDbSymbolTableRecord
100
AcDbBlockTableRecord
  2
*MODEL_SPACE
  0
BLOCK_RECORD
  5
1B
330
1
100
AcDbSymbolTableRecord
100
AcDbBlockTableRecord
  2
*PAPER_SPACE
  0
BLOCK_RECORD
  5
48
330
1
100
AcDbSymbolTableRecord
100
AcDbBlockTableRecord
  2
DA_IMAGEDIMGROUP_1
  0
BLOCK_RECORD
  5
4B
330
1
100
AcDbSymbolTableRecord
100
AcDbBlockTableRecord
  2
DA_IMAGEDIMGROUP_2
  0
BLOCK_RECORD
  5
4E
330
1
100
AcDbSymbolTableRecord
100
AcDbBlockTableRecord
  2
DA_IMAGEDIMGROUP_3
  0
BLOCK_RECORD
  5
51
330
1
100
AcDbSymbolTableRecord
100
AcDbBlockTableRecord
  2
DC_GROUP_1
  0
BLOCK_RECORD
  5
57
330
1
100
AcDbSymbolTableRecord
100
AcDbBlockTableRecord
  2
_OPEN30
  0
ENDTAB
  0
ENDSEC
  0
SECTION
  2
BLOCKS
  0
BLOCK
  5
20
330
1F
100
AcDbEntity
  8
0
100
AcDbBlockBegin
  2
*MODEL_SPACE
 70
     0
 71
     0
 10
0.0
 20
0.0
 30
0.0
  3
*MODEL_SPACE
  1

  0
ENDBLK
  5
21
330
1F
100
AcDbEntity
  8
0
100
AcDbBlockEnd
  0
BLOCK
  5
1C
330
1B
100
AcDbEntity
 67
     1
  8
0
100
AcDbBlockBegin
  2
*PAPER_SPACE
 70
     0
 71
     0
 10
0.0
 20
0.0
 30
0.0
  3
*PAPER_SPACE
  1

  0
ENDBLK
  5
1D
330
1B
100
AcDbEntity
 67
     1
  8
0
100
AcDbBlockEnd
  0
BLOCK
  5
49
330
48
100
AcDbEntity
  8
0
100
AcDbBlockBegin
  2
DA_IMAGEDIMGROUP_1
 70
     0
 71
     0
 10
0.0
 20
0.0
 30
0.0
  3
DA_IMAGEDIMGROUP_1
  1

  0
LINE
  5
54
330
48
100
AcDbEntity
  8
0
  6
CONTINUOUS
 62
     9
100
AcDbLine
 10
-6.075052815767896
 20
3.849596218095603
 30
0.0
 11
-6.075052815767896
 21
-5.351310483870965
 31
0.0
  0
LINE
  5
55
330
48
100
AcDbEntity
  8
0
  6
CONTINUOUS
 62
     9
100
AcDbLine
 10
0.4249471842320967
 20
6.349596218095603
 30
0.0
 11
0.4249471842320967
 21
-5.351310483870965
 31
0.0
  0
LINE
  5
56
330
48
100
AcDbEntity
  8
0
  6
CONTINUOUS
 62
     9
100
AcDbLine
 10
-6.075052815767896
 20
-4.851310483870965
 30
0.0
 11
0.4249471842320967
 21
-4.851310483870965
 31
0.0
  0
INSERT
  5
5D
330
48
100
AcDbEntity
  8
0
 62
     9
100
AcDbBlockReference
  2
_OPEN30
 10
-6.075052815767896
 20
-4.851310483870965
 30
0.0
 41
1.500001393912182
 42
1.499994636989232
 50
180.0
  0
INSERT
  5
5E
330
48
100
AcDbEntity
  8
0
 62
     9
100
AcDbBlockReference
  2
_OPEN30
 10
0.4249471842320967
 20
-4.851310483870965
 30
0.0
 41
1.500001393912182
 42
1.499994636989232
 50
360.0
  0
TEXT
  5
60
330
48
100
AcDbEntity
  8
0
 62
     7
100
AcDbText
 10
-5.4750528157679
 20
-4.351310483870965
 30
0.0
 40
2.0
  1
6.5
 41
0.8000000000000002
  7
FDASTYLE0
 72
     5
 11
-0.6750528157678994
 21
-4.351310483870965
 31
0.0
100
AcDbText
  0
ENDBLK
  5
4A
330
48
100
AcDbEntity
  8
0
100
AcDbBlockEnd
  0
BLOCK
  5
4C
330
4B
100
AcDbEntity
  8
0
100
AcDbBlockBegin
  2
DA_IMAGEDIMGROUP_2
 70
     0
 71
     0
 10
0.0
 20
0.0
 30
0.0
  3
DA_IMAGEDIMGROUP_2
  1

  0
LINE
  5
61
330
4B
100
AcDbEntity
  8
0
  6
CONTINUOUS
 62
     9
100
AcDbLine
 10
3.924947184232097
 20
9.099596218095602
 30
0.0
 11
3.924947184232097
 21
16.80418346774194
 31
0.0
  0
LINE
  5
62
330
4B
100
AcDbEntity
  8
0
  6
CONTINUOUS
 62
     9
100
AcDbLine
 10
4.924947184232097
 20
12.64959621809561
 30
0.0
 11
4.924947184232097
 21
16.80418346774194
 31
0.0
  0
LINE
  5
63
330
4B
100
AcDbEntity
  8
0
  6
CONTINUOUS
 62
     9
100
AcDbLine
 10
3.924947184232097
 20
16.30418346774194
 30
0.0
 11
4.924947184232097
 21
16.30418346774194
 31
0.0
  0
LINE
  5
64
330
4B
100
AcDbEntity
  8
0
  6
CONTINUOUS
 62
     9
100
AcDbLine
 10
8.973837184232096
 20
16.30418346774194
 30
0.0
 11
4.924947184232097
 21
16.30418346774194
 31
0.0
  0
INSERT
  5
65
330
4B
100
AcDbEntity
  8
0
 62
     9
100
AcDbBlockReference
  2
_OPEN30
 10
4.924947184232097
 20
16.30418346774194
 30
0.0
 41
1.500001393912182
 42
1.499994636989232
 50
180.0
  0
LINE
  5
66
330
4B
100
AcDbEntity
  8
0
  6
CONTINUOUS
 62
     9
100
AcDbLine
 10
1.424947184232097
 20
16.30418346774194
 30
0.0
 11
3.924947184232097
 21
16.30418346774194
 31
0.0
  0
INSERT
  5
67
330
4B
100
AcDbEntity
  8
0
 62
     9
100
AcDbBlockReference
  2
_OPEN30
 10
3.924947184232097
 20
16.30418346774194
 30
0.0
 41
1.500001393912182
 42
1.499994636989232
 50
360.0
  0
TEXT
  5
68
330
4B
100
AcDbEntity
  8
0
 62
     7
100
AcDbText
 10
6.873837184232096
 20
16.80418346774194
 30
0.0
 40
2.0
  1
1
 41
0.7999999999999998
  7
FDASTYLE0
 72
     5
 11
8.473837184232096
 21
16.80418346774194
 31
0.0
100
AcDbText
  0
ENDBLK
  5
4D
330
4B
100
AcDbEntity
  8
0
100
AcDbBlockEnd
  0
BLOCK
  5
4F
330
4E
100
AcDbEntity
  8
0
100
AcDbBlockBegin
  2
DA_IMAGEDIMGROUP_3
 70
     0
 71
     0
 10
0.0
 20
0.0
 30
0.0
  3
DA_IMAGEDIMGROUP_3
  1

  0
LINE
  5
69
330
4E
100
AcDbEntity
  8
0
  6
CONTINUOUS
 62
     9
100
AcDbLine
 10
2.424947184232104
 20
9.099596218095602
 30
0.0
 11
2.424947184232104
 21
20.70665322580645
 31
0.0
  0
LINE
  5
6A
330
4E
100
AcDbEntity
  8
0
  6
CONTINUOUS
 62
     9
100
AcDbLine
 10
2.424947184232104
 20
20.20665322580645
 30
0.0
 11
4.924947184232097
 21
20.20665322580645
 31
0.0
  0
LINE
  5
6B
330
4E
100
AcDbEntity
  8
0
  6
CONTINUOUS
 62
     9
100
AcDbLine
 10
15.37383718423209
 20
20.20665322580645
 30
0.0
 11
4.924947184232097
 21
20.20665322580645
 31
0.0
  0
INSERT
  5
6C
330
4E
100
AcDbEntity
  8
0
 62
     9
100
AcDbBlockReference
  2
_OPEN30
 10
4.924947184232097
 20
20.20665322580645
 30
0.0
 41
1.500001393912182
 42
1.499994636989232
 50
180.0
  0
LINE
  5
6D
330
4E
100
AcDbEntity
  8
0
  6
CONTINUOUS
 62
     9
100
AcDbLine
 10
-0.0750528157678962
 20
20.20665322580645
 30
0.0
 11
2.424947184232104
 21
20.20665322580645
 31
0.0
  0
INSERT
  5
6E
330
4E
100
AcDbEntity
  8
0
 62
     9
100
AcDbBlockReference
  2
_OPEN30
 10
2.424947184232104
 20
20.20665322580645
 30
0.0
 41
1.500001393912182
 42
1.499994636989232
 50
360.0
  0
TEXT
  5
6F
330
4E
100
AcDbEntity
  8
0
 62
     7
100
AcDbText
 10
6.873837184232096
 20
20.70665322580645
 30
0.0
 40
2.0
  1
(2.5)
 41
0.8
  7
FDASTYLE0
 72
     5
 11
14.8738371842321
 21
20.70665322580645
 31
0.0
100
AcDbText
  0
ENDBLK
  5
50
330
4E
100
AcDbEntity
  8
0
100
AcDbBlockEnd
  0
BLOCK
  5
52
330
51
100
AcDbEntity
  8
0
100
AcDbBlockBegin
  2
DC_GROUP_1
 70
     0
 71
     0
 10
0.0
 20
0.0
 30
0.0
  3
DC_GROUP_1
  1

  0
LINE
  5
70
330
51
100
AcDbEntity
  8
0
  6
CONTINUOUS
 62
     9
100
AcDbLine
 10
4.924947184232097
 20
12.64959621809561
 30
0.0
 11
4.924947184232097
 21
24.89500896844928
 31
0.0
  0
LINE
  5
71
330
51
100
AcDbEntity
  8
0
  6
CONTINUOUS
 62
     9
100
AcDbLine
 10
27.7749471842321
 20
12.8495962180956
 30
0.0
 11
27.7749471842321
 21
19.87321960528765
 31
0.0
  0
LINE
  5
72
330
51
100
AcDbEntity
  8
0
  6
CONTINUOUS
 62
     9
100
AcDbLine
 10
27.7749471842321
 20
23.01356929469711
 30
0.0
 11
27.7749471842321
 21
24.89500896844928
 31
0.0
  0
LINE
  5
73
330
51
100
AcDbEntity
  8
0
  6
CONTINUOUS
 62
     9
100
AcDbLine
 10
4.924947184232097
 20
24.39500896844928
 30
0.0
 11
27.7749471842321
 21
24.39500896844928
 31
0.0
  0
INSERT
  5
74
330
51
100
AcDbEntity
  8
0
 62
     9
100
AcDbBlockReference
  2
_OPEN30
 10
4.924947184232097
 20
24.39500896844928
 30
0.0
 41
1.500001393912182
 42
1.499994636989232
 50
180.0
  0
INSERT
  5
75
330
51
100
AcDbEntity
  8
0
 62
     9
100
AcDbBlockReference
  2
_OPEN30
 10
27.7749471842321
 20
24.39500896844928
 30
0.0
 41
1.500001393912182
 42
1.499994636989232
 50
360.0
  0
TEXT
  5
76
330
51
100
AcDbEntity
  8
0
 62
     7
100
AcDbText
 10
12.3499471842321
 20
24.89500896844928
 30
0.0
 40
2.0
  1
22.85
 41
0.8
  7
FDASTYLE0
 72
     5
 11
20.3499471842321
 21
24.89500896844928
 31
0.0
100
AcDbText
  0
ENDBLK
  5
53
330
51
100
AcDbEntity
  8
0
100
AcDbBlockEnd
  0
BLOCK
  5
58
330
57
100
AcDbEntity
  8
0
100
AcDbBlockBegin
  2
_OPEN30
 70
     0
 71
     0
 10
0.0
 20
0.0
 30
0.0
  3
_OPEN30
  1

  0
LINE
  5
5A
330
57
100
AcDbEntity
  8
0
  6
BYBLOCK
 62
     0
100
AcDbLine
 10
-1.0
 20
0.267949
 30
0.0
 11
0.0
 21
0.0
 31
0.0
  0
LINE
  5
5B
330
57
100
AcDbEntity
  8
0
  6
BYBLOCK
 62
     0
100
AcDbLine
 10
0.0
 20
0.0
 30
0.0
 11
-1.0
 21
-0.267949
 31
0.0
  0
LINE
  5
5C
330
57
100
AcDbEntity
  8
0
  6
BYBLOCK
 62
     0
100
AcDbLine
 10
0.0
 20
0.0
 30
0.0
 11
-1.0
 21
0.0
 31
0.0
  0
ENDBLK
  5
59
330
57
100
AcDbEntity
  8
0
100
AcDbBlockEnd
  0
ENDSEC
  0
SECTION
  2
ENTITIES
  0
LINE
  5
77
330
1F
100
AcDbEntity
  8
0
  6
CENTER
 62
     9
100
AcDbLine
 10
-7.075052815767896
 20
5.849596218095603
 30
0.0
 11
28.97494718423209
 21
5.849596218095603
 31
0.0
  0
LINE
  5
78
330
1F
100
AcDbEntity
  8
0
  6
CENTER
 62
     9
100
AcDbLine
 10
-28.28089990764279
 20
5.849596218095603
 30
0.0
 11
-43.28089990764279
 21
5.849596218095603
 31
0.0
  0
LINE
  5
79
330
1F
100
AcDbEntity
  8
0
  6
CENTER
 62
     9
100
AcDbLine
 10
-35.78089990764279
 20
13.3495962180956
 30
0.0
 11
-35.78089990764279
 21
-1.650403781904396
 31
0.0
  0
LINE
  5
7A
330
1F
100
AcDbEntity
  8
0
  6
CENTER
 62
     9
100
AcDbLine
 10
-31.03089990764278
 20
7.349596218095603
 30
0.0
 11
-31.03089990764278
 21
4.349596218095603
 31
0.0
  0
LINE
  5
7B
330
1F
100
AcDbEntity
  8
0
  6
CENTER
 62
     9
100
AcDbLine
 10
-40.53089990764278
 20
4.349596218095603
 30
0.0
 11
-40.53089990764278
 21
7.349596218095603
 31
0.0
  0
LINE
  5
7C
330
1F
100
AcDbEntity
  8
0
  6
CENTER
 62
     9
100
AcDbLine
 10
26.27494719346051
 20
8.94863806208469
 30
0.0
 11
26.27494719346051
 21
13.23101344970018
 31
0.0
  0
LINE
  5
7D
330
1F
100
AcDbEntity
  8
0
  6
DASHED2
 62
     9
100
AcDbLine
 10
24.4249471842321
 20
11.4995962180956
 30
0.0
 11
27.7749471842321
 21
11.4995962180956
 31
0.0
  0
LINE
  5
7E
330
1F
100
AcDbEntity
  8
0
  6
DASHED2
 62
     9
100
AcDbLine
 10
24.4249471842321
 20
11.4995962180956
 30
0.0
 11
24.4249471842321
 21
0.1995962180956088
 31
0.0
  0
LINE
  5
7F
330
1F
100
AcDbEntity
  8
0
  6
DASHED2
 62
     9
100
AcDbLine
 10
24.4249471842321
 20
0.1995962180956088
 30
0.0
 11
27.7749471842321
 21
0.1995962180956088
 31
0.0
  0
LINE
  5
80
330
1F
100
AcDbEntity
  8
0
  6
DASHED2
 62
     9
100
AcDbLine
 10
22.2749471842321
 20
3.929596218095605
 30
0.0
 11
22.2749471842321
 21
7.769596218095601
 31
0.0
  0
LINE
  5
81
330
1F
100
AcDbEntity
  8
0
  6
DASHED2
 62
     9
100
AcDbLine
 10
22.2749471842321
 20
7.769596218095601
 30
0.0
 11
24.4249471842321
 21
7.769596218095601
 31
0.0
  0
LINE
  5
82
330
1F
100
AcDbEntity
  8
0
  6
DASHED2
 62
     9
100
AcDbLine
 10
22.2749471842321
 20
3.929596218095605
 30
0.0
 11
24.4249471842321
 21
3.929596218095605
 31
0.0
  0
LINE
  5
83
330
1F
100
AcDbEntity
  8
0
  6
DASHED2
 62
     9
100
AcDbLine
 10
25.57494718423209
 20
11.69959621809561
 30
0.0
 11
26.97494718423207
 21
11.69959621809561
 31
0.0
  0
LINE
  5
84
330
1F
100
AcDbEntity
  8
0
  6
DASHED2
 62
     9
100
AcDbLine
 10
25.57494719346051
 20
9.649596218095619
 30
0.0
 11
25.57494719346051
 21
11.69959621809561
 31
0.0
  0
LINE
  5
85
330
1F
100
AcDbEntity
  8
0
  6
DASHED2
 62
     9
100
AcDbLine
 10
26.97494717500364
 20
9.649596218095619
 30
0.0
 11
26.97494717500364
 21
11.69959621809561
 31
0.0
  0
LINE
  5
86
330
1F
100
AcDbEntity
  8
0
  6
DASHED2
 62
     9
100
AcDbLine
 10
26.97494718423207
 20
9.649596218095619
 30
0.0
 11
25.57494718423209
 21
9.649596218095619
 31
0.0
  0
LINE
  5
87
330
1F
100
AcDbEntity
  8
0
  6
DASHED2
 62
     9
100
AcDbLine
 10
27.52494718423207
 20
12.24959621809563
 30
0.0
 11
25.02494718423208
 21
12.24959621809563
 31
0.0
  0
LINE
  5
88
330
1F
100
AcDbEntity
  8
0
  6
DASHED2
 62
     9
100
AcDbLine
 10
27.62494718423205
 20
12.3495962180956
 30
0.0
 11
26.97494718423207
 21
11.69959621809561
 31
0.0
  0
LINE
  5
89
330
1F
100
AcDbEntity
  8
0
  6
DASHED2
 62
     9
100
AcDbLine
 10
24.9249471842321
 20
12.3495962180956
 30
0.0
 11
25.57494718423209
 21
11.69959621809561
 31
0.0
  0
CIRCLE
  5
8A
330
1F
100
AcDbEntity
  8
0
  6
CONTINUOUS
 62
     9
100
AcDbCircle
 10
-31.03089990764278
 20
5.849596218095603
 30
0.0
 40
1.0
  0
CIRCLE
  5
8B
330
1F
100
AcDbEntity
  8
0
  6
CONTINUOUS
 62
     9
100
AcDbCircle
 10
-40.53089990764278
 20
5.849596218095603
 30
0.0
 40
1.0
  0
LINE
  5
8C
330
1F
100
AcDbEntity
  8
0
  6
CONTINUOUS
 62
     9
100
AcDbLine
 10
-10.0750528157679
 20
4.349596218095603
 30
0.0
 11
-10.0750528157679
 21
6.849596218095607
 31
0.0
  0
LINE
  5
8D
330
1F
100
AcDbEntity
  8
0
  6
CONTINUOUS
 62
     9
100
AcDbLine
 10
-6.575052815767896
 20
4.349596218095603
 30
0.0
 11
-9.075052815767897
 21
4.349596218095603
 31
0.0
  0
LINE
  5
8E
330
1F
100
AcDbEntity
  8
0
  6
CONTINUOUS
 62
     9
100
AcDbLine
 10
-6.575052815767896
 20
6.849596218095607
 30
0.0
 11
-10.5750528157679
 21
6.849596218095607
 31
0.0
  0
LINE
  5
8F
330
1F
100
AcDbEntity
  8
0
  6
CONTINUOUS
 62
     9
100
AcDbLine
 10
-14.07505281576789
 20
4.349596218095603
 30
0.0
 11
-14.07505281576789
 21
7.349596218095603
 31
0.0
  0
LINE
  5
90
330
1F
100
AcDbEntity
  8
0
  6
CONTINUOUS
 62
     9
100
AcDbLine
 10
-6.575052815767896
 20
4.349596218095603
 30
0.0
 11
-14.57505281576789
 21
4.349596218095603
 31
0.0
  0
LINE
  5
91
330
1F
100
AcDbEntity
  8
0
  6
CONTINUOUS
 62
     9
100
AcDbLine
 10
-0.0750528157679033
 20
7.349596218095603
 30
0.0
 11
-14.57505281576789
 21
7.349596218095603
 31
0.0
  0
LINE
  5
92
330
1F
100
AcDbEntity
  8
0
  6
CONTINUOUS
 62
     9
100
AcDbLine
 10
-6.075052815767896
 20
7.349596218095607
 30
0.0
 11
-6.075052815767896
 21
24.89500896844928
 31
0.0
  0
LINE
  5
93
330
1F
100
AcDbEntity
  8
0
  6
CONTINUOUS
 62
     9
100
AcDbLine
 10
4.924947184232097
 20
12.8495962180956
 30
0.0
 11
4.924947184232097
 21
24.89500896844928
 31
0.0
  0
LINE
  5
94
330
1F
100
AcDbEntity
  8
0
  6
CONTINUOUS
 62
     9
100
AcDbLine
 10
46.65396341463413
 20
20.23191734417344
 30
0.0
 11
20.9375
 21
20.23191734417344
 31
0.0
  0
LINE
  5
95
330
1F
100
AcDbEntity
  8
0
  6
CONTINUOUS
 62
     9
100
AcDbLine
 10
27.7749471842321
 20
11.4995962180956
 30
0.0
 11
27.97494718423209
 21
11.4995962180956
 31
0.0
  0
LINE
  5
96
330
1F
100
AcDbEntity
  8
0
  6
CONTINUOUS
 62
     9
100
AcDbLine
 10
27.7749471842321
 20
0.1995962180956088
 30
0.0
 11
27.97494718423209
 21
0.1995962180956088
 31
0.0
  0
LINE
  5
97
330
1F
100
AcDbEntity
  8
0
  6
CONTINUOUS
 62
     9
100
AcDbLine
 10
27.97494718423209
 20
0.1995962180956088
 30
0.0
 11
27.97494718423209
 21
11.4995962180956
 31
0.0
  0
LINE
  5
98
330
1F
100
AcDbEntity
  8
0
  6
CONTINUOUS
 62
     9
100
AcDbLine
 10
-10.0750528157679
 20
20.96420475181694
 30
0.0
 11
-10.0750528157679
 21
6.849596218095607
 31
0.0
  0
INSERT
  5
99
330
1F
100
AcDbEntity
  8
0
 62
     9
100
AcDbBlockReference
  2
_OPEN30
 10
-10.0750528157679
 20
6.849596218095607
 30
0.0
 41
1.500001393912182
 42
1.499994636989232
 50
270.0
  0
LINE
  5
9A
330
1F
100
AcDbEntity
  8
0
  6
CONTINUOUS
 62
     9
100
AcDbLine
 10
-10.0750528157679
 20
0.9876011726467326
 30
0.0
 11
-10.0750528157679
 21
4.349596218095603
 31
0.0
  0
INSERT
  5
9B
330
1F
100
AcDbEntity
  8
0
 62
     9
100
AcDbBlockReference
  2
_OPEN30
 10
-10.0750528157679
 20
4.349596218095603
 30
0.0
 41
1.500001393912182
 42
1.499994636989232
 50
90.0
  0
LINE
  5
9C
330
1F
100
AcDbEntity
  8
0
  6
CONTINUOUS
 62
     9
100
AcDbLine
 10
-14.07505281576789
 20
20.96420475181694
 30
0.0
 11
-14.07505281576789
 21
7.349596218095603
 31
0.0
  0
INSERT
  5
9D
330
1F
100
AcDbEntity
  8
0
 62
     9
100
AcDbBlockReference
  2
_OPEN30
 10
-14.07505281576789
 20
7.349596218095603
 30
0.0
 41
1.500001393912182
 42
1.499994636989232
 50
270.0
  0
LINE
  5
9E
330
1F
100
AcDbEntity
  8
0
  6
CONTINUOUS
 62
     9
100
AcDbLine
 10
-14.07505281576789
 20
0.9876011726467326
 30
0.0
 11
-14.07505281576789
 21
4.349596218095603
 31
0.0
  0
INSERT
  5
9F
330
1F
100
AcDbEntity
  8
0
 62
     9
100
AcDbBlockReference
  2
_OPEN30
 10
-14.07505281576789
 20
4.349596218095603
 30
0.0
 41
1.500001393912182
 42
1.499994636989232
 50
90.0
  0
LINE
  5
A0
330
1F
100
AcDbEntity
  8
0
  6
CONTINUOUS
 62
     9
100
AcDbLine
 10
-6.075052815767896
 20
24.39500896844928
 30
0.0
 11
4.924947184232097
 21
24.39500896844928
 31
0.0
  0
INSERT
  5
A1
330
1F
100
AcDbEntity
  8
0
 62
     9
100
AcDbBlockReference
  2
_OPEN30
 10
-6.075052815767896
 20
24.39500896844928
 30
0.0
 41
1.500001393912182
 42
1.499994636989232
 50
180.0
  0
INSERT
  5
A2
330
1F
100
AcDbEntity
  8
0
 62
     9
100
AcDbBlockReference
  2
_OPEN30
 10
4.924947184232097
 20
24.39500896844928
 30
0.0
 41
1.500001393912182
 42
1.499994636989232
 50
360.0
  0
LINE
  5
A3
330
1F
100
AcDbEntity
  8
0
  6
CONTINUOUS
 62
     9
100
AcDbLine
 10
26.27494719346051
 20
12.3495962180956
 30
0.0
 11
20.9375
 21
20.23191734417344
 31
0.0
  0
INSERT
  5
A4
330
1F
100
AcDbEntity
  8
0
 62
     9
100
AcDbBlockReference
  2
_OPEN30
 10
26.27494719346051
 20
12.3495962180956
 30
0.0
 41
1.500001393912182
 42
1.499994636989232
 50
304.1035614517461
  0
LINE
  5
A5
330
1F
100
AcDbEntity
  8
0
  6
CONTINUOUS
 62
     3
100
AcDbLine
 10
5.1249471842321
 20
12.3495962180956
 30
0.0
 11
27.7749471842321
 21
12.3495962180956
 31
0.0
  0
LINE
  5
A6
330
1F
100
AcDbEntity
  8
0
  6
CONTINUOUS
 62
     3
100
AcDbLine
 10
5.1249471842321
 20
-0.6504037819043962
 30
0.0
 11
27.7749471842321
 21
-0.6504037819043962
 31
0.0
  0
LINE
  5
A7
330
1F
100
AcDbEntity
  8
0
  6
CONTINUOUS
 62
     3
100
AcDbLine
 10
4.924947184232097
 20
-0.4504037819043969
 30
0.0
 11
4.924947184232097
 21
12.14959621809561
 31
0.0
  0
LINE
  5
A8
330
1F
100
AcDbEntity
  8
0
  6
CONTINUOUS
 62
     3
100
AcDbLine
 10
3.924947184232097
 20
8.649596218095603
 30
0.0
 11
3.924947184232097
 21
3.049596218095602
 31
0.0
  0
LINE
  5
A9
330
1F
100
AcDbEntity
  8
0
  6
CONTINUOUS
 62
     3
100
AcDbLine
 10
2.424947184232104
 20
7.349596218095603
 30
0.0
 11
1.290972588016538
 21
7.349596218095603
 31
0.0
  0
LINE
  5
AA
330
1F
100
AcDbEntity
  8
0
  6
CONTINUOUS
 62
     3
100
AcDbLine
 10
27.7749471842321
 20
12.3495962180956
 30
0.0
 11
27.7749471842321
 21
-0.6504037819043962
 31
0.0
  0
CIRCLE
  5
AB
330
1F
100
AcDbEntity
  8
0
  6
CONTINUOUS
 62
     3
100
AcDbCircle
 10
-35.78089990764279
 20
5.849596218095603
 30
0.0
 40
1.5
  0
CIRCLE
  5
AC
330
1F
100
AcDbEntity
  8
0
  6
CONTINUOUS
 62
     3
100
AcDbCircle
 10
-35.78089990764279
 20
5.849596218095603
 30
0.0
 40
6.5
  0
LINE
  5
AD
330
1F
100
AcDbEntity
  8
0
  6
CONTINUOUS
 62
     3
100
AcDbLine
 10
-36.89893389639268
 20
6.849596218095607
 30
0.0
 11
-34.66286591889289
 21
6.849596218095607
 31
0.0
  0
CIRCLE
  5
AE
330
1F
100
AcDbEntity
  8
0
  6
CONTINUOUS
 62
     3
100
AcDbCircle
 10
-35.78089990764279
 20
5.849596218095603
 30
0.0
 40
3.0
  0
LINE
  5
AF
330
1F
100
AcDbEntity
  8
0
  6
CONTINUOUS
 62
     3
100
AcDbLine
 10
4.1249471842321
 20
8.849596218095602
 30
0.0
 11
4.924947184232097
 21
8.849596218095602
 31
0.0
  0
LINE
  5
B0
330
1F
100
AcDbEntity
  8
0
  6
CONTINUOUS
 62
     3
100
AcDbLine
 10
3.924947184232097
 20
8.649596218095603
 30
0.0
 11
4.1249471842321
 21
8.849596218095602
 31
0.0
  0
LINE
  5
B1
330
1F
100
AcDbEntity
  8
0
  6
CONTINUOUS
 62
     3
100
AcDbLine
 10
4.1249471842321
 20
2.849596218095603
 30
0.0
 11
4.924947184232097
 21
2.849596218095603
 31
0.0
  0
LINE
  5
B2
330
1F
100
AcDbEntity
  8
0
  6
CONTINUOUS
 62
     3
100
AcDbLine
 10
3.924947184232097
 20
3.049596218095602
 30
0.0
 11
4.1249471842321
 21
2.849596218095603
 31
0.0
  0
LINE
  5
B3
330
1F
100
AcDbEntity
  8
0
  6
CONTINUOUS
 62
     3
100
AcDbLine
 10
2.424947184232104
 20
8.599596218095602
 30
0.0
 11
2.424947184232104
 21
3.099596218095603
 31
0.0
  0
LINE
  5
B4
330
1F
100
AcDbEntity
  8
0
  6
CONTINUOUS
 62
     3
100
AcDbLine
 10
3.924947184232104
 20
8.599596218095602
 30
0.0
 11
2.424947184232104
 21
8.599596218095602
 31
0.0
  0
LINE
  5
B5
330
1F
100
AcDbEntity
  8
0
  6
CONTINUOUS
 62
     3
100
AcDbLine
 10
3.924947184232104
 20
3.099596218095603
 30
0.0
 11
2.424947184232104
 21
3.099596218095603
 31
0.0
  0
CIRCLE
  5
B6
330
1F
100
AcDbEntity
  8
0
  6
CONTINUOUS
 62
     3
100
AcDbCircle
 10
-35.78089990764279
 20
5.849596218095603
 30
0.0
 40
2.75
  0
LINE
  5
B7
330
1F
100
AcDbEntity
  8
0
  6
CONTINUOUS
 62
     3
100
AcDbLine
 10
5.1249471842321
 20
12.3495962180956
 30
0.0
 11
4.924947184232097
 21
12.14959621809561
 31
0.0
  0
LINE
  5
B8
330
1F
100
AcDbEntity
  8
0
  6
CONTINUOUS
 62
     3
100
AcDbLine
 10
5.1249471842321
 20
-0.6504037819043962
 30
0.0
 11
4.924947184232097
 21
-0.4504037819043969
 31
0.0
  0
LINE
  5
B9
330
1F
100
AcDbEntity
  8
0
  6
CONTINUOUS
 62
     3
100
AcDbLine
 10
5.1249471842321
 20
12.3495962180956
 30
0.0
 11
5.1249471842321
 21
-0.6504037819043962
 31
0.0
  0
LINE
  5
BA
330
1F
100
AcDbEntity
  8
0
  6
CONTINUOUS
 62
     3
100
AcDbLine
 10
4.1249471842321
 20
8.849596218095599
 30
0.0
 11
4.1249471842321
 21
2.849596218095603
 31
0.0
  0
LINE
  5
BB
330
1F
100
AcDbEntity
  8
0
  6
CONTINUOUS
 62
     3
100
AcDbLine
 10
0.4249471842320967
 20
6.849596218095603
 30
0.0
 11
1.290972588016531
 21
7.349596218095603
 31
0.0
  0
CIRCLE
  5
BC
330
1F
100
AcDbEntity
  8
0
  6
CONTINUOUS
 62
     3
100
AcDbCircle
 10
-35.78089990764279
 20
5.849596218095603
 30
0.0
 40
6.300000000000003
  0
CIRCLE
  5
BD
330
1F
100
AcDbEntity
  8
0
  6
CONTINUOUS
 62
     3
100
AcDbCircle
 10
-31.03089990764278
 20
5.849596218095603
 30
0.0
 40
0.7850000000000001
  0
CIRCLE
  5
BE
330
1F
100
AcDbEntity
  8
0
  6
CONTINUOUS
 62
     3
100
AcDbCircle
 10
-40.53089990764278
 20
5.849596218095603
 30
0.0
 40
0.7850000000000001
  0
LINE
  5
BF
330
1F
100
AcDbEntity
  8
0
  6
CONTINUOUS
 62
     3
100
AcDbLine
 10
-6.075052815767896
 20
6.849596218095607
 30
0.0
 11
0.4249471842320967
 21
6.849596218095603
 31
0.0
  0
LINE
  5
C0
330
1F
100
AcDbEntity
  8
0
  6
CONTINUOUS
 62
     3
100
AcDbLine
 10
-6.075052815767896
 20
6.849596218095607
 30
0.0
 11
-6.075052815767896
 21
4.349596218095603
 31
0.0
  0
LINE
  5
C1
330
1F
100
AcDbEntity
  8
0
  6
CONTINUOUS
 62
     3
100
AcDbLine
 10
2.424947184232104
 20
4.349596218095603
 30
0.0
 11
-6.075052815767896
 21
4.349596218095603
 31
0.0
  0
TEXT
  5
C2
330
1F
100
AcDbEntity
  8
0
 62
     7
100
AcDbText
 10
-10.5750528157679
 20
9.798486218095603
 30
0.0
 40
2.0
  1
2.5
 50
90.0
 41
0.8000000000000002
  7
FDASTYLE0
 72
     5
 11
-10.5750528157679
 21
14.5984862180956
 31
0.0
100
AcDbText
  0
TEXT
  5
C3
330
1F
100
AcDbEntity
  8
0
 62
     7
100
AcDbText
 10
-11.6475528157679
 20
15.0084862180956
 30
0.0
 40
1.4
  1
±0.15
 50
90.0
 41
0.7692307692307693
  7
FDASTYLE0
 72
     5
 11
-11.6475528157679
 21
20.6084862180956
 31
0.0
100
AcDbText
  0
TEXT
  5
C4
330
1F
100
AcDbEntity
  8
0
 62
     7
100
AcDbText
 10
-14.57505281576789
 20
9.798486218095603
 30
0.0
 40
2.0
  1
φ3
 50
90.0
 41
0.7272727272727271
  7
FDASTYLE0
 72
     5
 11
-14.57505281576789
 21
12.9984862180956
 31
0.0
100
AcDbText
  0
TEXT
  5
C5
330
1F
100
AcDbEntity
  8
0
 62
     7
100
AcDbText
 10
-16.02255281576789
 20
13.6884862180956
 30
0.0
 40
1.4
  1
+0.005
 50
90.0
 41
0.8000000000000003
  7
FDASTYLE0
 72
     5
 11
-16.02255281576789
 21
20.4084862180956
 31
0.0
100
AcDbText
  0
TEXT
  5
C6
330
1F
100
AcDbEntity
  8
0
 62
     7
100
AcDbText
 10
-14.47505281576789
 20
13.6884862180956
 30
0.0
 40
1.4
  1
-0.015
 50
90.0
 41
0.8000000000000003
  7
FDASTYLE0
 72
     5
 11
-14.47505281576789
 21
20.4084862180956
 31
0.0
100
AcDbText
  0
TEXT
  5
C7
330
1F
100
AcDbEntity
  8
0
 62
     7
100
AcDbText
 10
-2.175052815767896
 20
24.89500896844928
 30
0.0
 40
2.0
  1
11
 41
0.8
  7
FDASTYLE0
 72
     5
 11
1.024947184232104
 21
24.89500896844928
 31
0.0
100
AcDbText
  0
TEXT
  5
C8
330
1F
100
AcDbEntity
  8
0
 62
     7
100
AcDbText
 10
20.98502854295995
 20
20.53191734417344
 30
0.0
 40
2.0
  1
3-M1.4（P=0.3）×3L
 41
0.7710843373493975
  7
FDASTYLE0
 72
     5
 11
46.58502854295995
 21
20.53191734417344
 31
0.0
100
AcDbText
  0
TEXT
  5
C9
330
1F
100
AcDbEntity
  8
0
 62
     7
100
AcDbText
 10
32.51785075953004
 20
0.0857988183122842
 30
0.0
 40
2.0
  1
φ11.3
 50
90.0
 41
0.7692307692307692
  7
FDASTYLE0
 72
     5
 11
32.51785075953004
 21
8.085798818312284
 31
0.0
100
AcDbText
  0
TEXT
  5
CA
330
1F
100
AcDbEntity
  8
0
 62
     7
100
AcDbText
 10
31.21785075953004
 20
8.585798818312284
 30
0.0
 40
1.3
  1
+0.03
 50
90.0
 41
0.8000000000000005
  7
FDASTYLE0
 72
     5
 11
31.21785075953004
 21
13.78579881831229
 31
0.0
100
AcDbText
  0
TEXT
  5
CB
330
1F
100
AcDbEntity
  8
0
 62
     7
100
AcDbText
 10
32.61785075953004
 20
8.585798818312284
 30
0.0
 40
1.3
  1
 0
 50
90.0
 41
0.7999999999999993
  7
FDASTYLE0
 72
     5
 11
32.61785075953004
 21
10.66579881831228
 31
0.0
100
AcDbText
  0
TEXT
  5
CC
330
1F
100
AcDbEntity
  8
0
 62
     7
100
AcDbText
 10
37.47494718423209
 20
1.483596218095604
 30
0.0
 40
2.0
  1
φ13
 50
90.0
 41
0.7499999999999996
  7
FDASTYLE0
 72
     5
 11
37.47494718423209
 21
6.283596218095601
 31
0.0
100
AcDbText
  0
TEXT
  5
CD
330
1F
100
AcDbEntity
  8
0
 62
     7
100
AcDbText
 10
36.1749471842321
 20
6.783596218095601
 30
0.0
 40
1.3
  1
±0.2
 50
90.0
 41
0.7619047619047612
  7
FDASTYLE0
 72
     5
 11
36.1749471842321
 21
10.9435962180956
 31
0.0
100
AcDbText
  0
TEXT
  5
CE
330
1F
100
AcDbEntity
  8
0
 62
     7
100
AcDbText
 10
-44.31113422493384
 20
-5.050377746649836
 30
0.0
 40
2.0
  1
2-M2（Ｐ＝0.4）ＤＥＰＴＨ　3MAX
 41
0.7304347826086957
  7
FDASTYLE0
 72
     5
 11
-10.71113422493384
 21
-5.050377746649836
 31
0.0
100
AcDbText
  0
TEXT
  5
CF
330
1F
100
AcDbEntity
  8
0
 62
     7
100
AcDbText
 10
-18.76431582732625
 20
1.426845053299461
 30
0.0
 40
2.0
  1
φ6
 50
90.0
 41
0.7272727272727279
  7
FDASTYLE0
 72
     5
 11
-18.76431582732625
 21
4.626845053299464
 31
0.0
100
AcDbText
  0
TEXT
  5
D0
330
1F
100
AcDbEntity
  8
0
 62
     7
100
AcDbText
 10
-20.43439346136261
 20
4.911990794726037
 30
0.0
 40
1.4
  1
+0.005
 50
90.0
 41
0.8
  7
FDASTYLE0
 72
     5
 11
-20.43439346136261
 21
11.63199079472604
 31
0.0
100
AcDbText
  0
TEXT
  5
D1
330
1F
100
AcDbEntity
  8
0
 62
     7
100
AcDbText
 10
-18.88689346136261
 20
4.911990794726037
 30
0.0
 40
1.4
  1
-0.030
 50
90.0
 41
0.8
  7
FDASTYLE0
 72
     5
 11
-18.88689346136261
 21
11.63199079472604
 31
0.0
100
AcDbText
  0
TEXT
  5
D2
330
1F
100
AcDbEntity
  8
0
 62
     7
100
AcDbText
 10
29.96383718423209
 20
-15.41087034754035
 30
0.0
 40
1.9
  1
（ＰＩＮＩＯＮ　ＰＯＳＩＴＩＯＮ）
 41
0.6666666666666667
  7
FDASTYLE0
 72
     5
 11
55.80383718423209
 21
-15.41087034754035
 31
0.0
100
AcDbText
  0
LINE
  5
D3
330
1F
100
AcDbEntity
  8
LAYER0001
  6
CONTINUOUS
 62
     9
100
AcDbLine
 10
-40.53089990764278
 20
16.34959621809561
 30
0.0
 11
-31.03089990764278
 21
16.34959621809561
 31
0.0
  0
INSERT
  5
D4
330
1F
100
AcDbEntity
  8
LAYER0001
 62
     9
100
AcDbBlockReference
  2
_OPEN30
 10
-40.53089990764278
 20
16.34959621809561
 30
0.0
 41
1.500001393912182
 42
1.499994636989232
 50
180.0
  0
INSERT
  5
D5
330
1F
100
AcDbEntity
  8
LAYER0001
 62
     9
100
AcDbBlockReference
  2
_OPEN30
 10
-31.03089990764278
 20
16.34959621809561
 30
0.0
 41
1.500001393912182
 42
1.499994636989232
 50
360.0
  0
LINE
  5
D6
330
1F
100
AcDbEntity
  8
LAYER0001
  6
CONTINUOUS
 62
     9
100
AcDbLine
 10
4.924947184232097
 20
-19.11322463768116
 30
0.0
 11
27.97494718423209
 21
-19.11322463768116
 31
0.0
  0
INSERT
  5
D7
330
1F
100
AcDbEntity
  8
LAYER0001
 62
     9
100
AcDbBlockReference
  2
_OPEN30
 10
4.924947184232097
 20
-19.11322463768116
 30
0.0
 41
1.500001393912182
 42
1.499994636989232
 50
180.0
  0
INSERT
  5
D8
330
1F
100
AcDbEntity
  8
LAYER0001
 62
     9
100
AcDbBlockReference
  2
_OPEN30
 10
27.97494718423209
 20
-19.11322463768116
 30
0.0
 41
1.500001393912182
 42
1.499994636989232
 50
360.0
  0
LINE
  5
D9
330
1F
100
AcDbEntity
  8
LAYER0001
  6
CONTINUOUS
 62
     9
100
AcDbLine
 10
-40.53089990764278
 20
7.849596218095603
 30
0.0
 11
-40.53089990764278
 21
16.84959621809561
 31
0.0
  0
LINE
  5
DA
330
1F
100
AcDbEntity
  8
LAYER0001
  6
CONTINUOUS
 62
     9
100
AcDbLine
 10
-31.03089990764278
 20
7.849596218095603
 30
0.0
 11
-31.03089990764278
 21
16.84959621809561
 31
0.0
  0
LINE
  5
DB
330
1F
100
AcDbEntity
  8
LAYER0001
  6
CONTINUOUS
 62
     9
100
AcDbLine
 10
4.924947184232097
 20
-0.9504037819043969
 30
0.0
 11
4.924947184232097
 21
-19.61322463768116
 31
0.0
  0
LINE
  5
DC
330
1F
100
AcDbEntity
  8
LAYER0001
  6
CONTINUOUS
 62
     9
100
AcDbLine
 10
27.97494718423209
 20
-0.2280923516501824
 30
0.0
 11
27.97494718423209
 21
-19.61322463768116
 31
0.0
  0
LINE
  5
DD
330
1F
100
AcDbEntity
  8
LAYER0001
  6
CONTINUOUS
 62
     9
100
AcDbLine
 10
26.27494719346051
 20
-4.650403781904396
 30
0.0
 11
27.97494718423209
 21
-4.650403781904396
 31
0.0
  0
LINE
  5
DE
330
1F
100
AcDbEntity
  8
LAYER0001
  6
CONTINUOUS
 62
     9
100
AcDbLine
 10
26.27494719346051
 20
8.44863806208469
 30
0.0
 11
26.27494719346051
 21
-5.150403781904396
 31
0.0
  0
LINE
  5
DF
330
1F
100
AcDbEntity
  8
LAYER0001
  6
CONTINUOUS
 62
     9
100
AcDbLine
 10
27.97494718423209
 20
-1.150403781904396
 30
0.0
 11
27.97494718423209
 21
-6.150403781904396
 31
0.0
  0
LINE
  5
E0
330
1F
100
AcDbEntity
  8
LAYER0001
  6
CONTINUOUS
 62
     9
100
AcDbLine
 10
24.4249471842321
 20
-8.650403781904396
 30
0.0
 11
27.97494718423209
 21
-8.650403781904396
 31
0.0
  0
LINE
  5
E1
330
1F
100
AcDbEntity
  8
LAYER0001
  6
CONTINUOUS
 62
     9
100
AcDbLine
 10
24.4249471842321
 20
-0.3004037819043912
 30
0.0
 11
24.4249471842321
 21
-9.150403781904396
 31
0.0
  0
LINE
  5
E2
330
1F
100
AcDbEntity
  8
LAYER0001
  6
CONTINUOUS
 62
     9
100
AcDbLine
 10
27.97494718423209
 20
-1.150403781904396
 30
0.0
 11
27.97494718423209
 21
-9.150403781904396
 31
0.0
  0
LINE
  5
E3
330
1F
100
AcDbEntity
  8
LAYER0001
  6
CONTINUOUS
 62
     9
100
AcDbLine
 10
22.2749471842321
 20
-12.6504037819044
 30
0.0
 11
27.97494718423209
 21
-12.6504037819044
 31
0.0
  0
LINE
  5
E4
330
1F
100
AcDbEntity
  8
LAYER0001
  6
CONTINUOUS
 62
     9
100
AcDbLine
 10
22.2749471842321
 20
3.429596218095605
 30
0.0
 11
22.2749471842321
 21
-13.1504037819044
 31
0.0
  0
LINE
  5
E5
330
1F
100
AcDbEntity
  8
LAYER0001
  6
CONTINUOUS
 62
     9
100
AcDbLine
 10
27.97494718423209
 20
-1.150403781904396
 30
0.0
 11
27.97494718423209
 21
-12.1504037819044
 31
0.0
  0
LINE
  5
E6
330
1F
100
AcDbEntity
  8
LAYER0001
  6
CONTINUOUS
 62
     9
100
AcDbLine
 10
45.7238371842321
 20
-4.650403781904396
 30
0.0
 11
27.97494718423209
 21
-4.650403781904396
 31
0.0
  0
INSERT
  5
E7
330
1F
100
AcDbEntity
  8
LAYER0001
 62
     9
100
AcDbBlockReference
  2
_OPEN30
 10
27.97494718423209
 20
-4.650403781904396
 30
0.0
 41
1.500001393912182
 42
1.499994636989232
 50
180.0
  0
LINE
  5
E8
330
1F
100
AcDbEntity
  8
LAYER0001
  6
CONTINUOUS
 62
     9
100
AcDbLine
 10
23.77494719346051
 20
-4.650403781904396
 30
0.0
 11
26.27494719346051
 21
-4.650403781904396
 31
0.0
  0
INSERT
  5
E9
330
1F
100
AcDbEntity
  8
LAYER0001
 62
     9
100
AcDbBlockReference
  2
_OPEN30
 10
26.27494719346051
 20
-4.650403781904396
 30
0.0
 41
1.500001393912182
 42
1.499994636989232
 50
360.0
  0
LINE
  5
EA
330
1F
100
AcDbEntity
  8
LAYER0001
  6
CONTINUOUS
 62
     9
100
AcDbLine
 10
38.42383718423209
 20
-8.650403781904396
 30
0.0
 11
27.97494718423209
 21
-8.650403781904396
 31
0.0
  0
INSERT
  5
EB
330
1F
100
AcDbEntity
  8
LAYER0001
 62
     9
100
AcDbBlockReference
  2
_OPEN30
 10
27.97494718423209
 20
-8.650403781904396
 30
0.0
 41
1.500001393912182
 42
1.499994636989232
 50
180.0
  0
LINE
  5
EC
330
1F
100
AcDbEntity
  8
LAYER0001
  6
CONTINUOUS
 62
     9
100
AcDbLine
 10
21.9249471842321
 20
-8.650403781904396
 30
0.0
 11
24.4249471842321
 21
-8.650403781904396
 31
0.0
  0
INSERT
  5
ED
330
1F
100
AcDbEntity
  8
LAYER0001
 62
     9
100
AcDbBlockReference
  2
_OPEN30
 10
24.4249471842321
 20
-8.650403781904396
 30
0.0
 41
1.500001393912182
 42
1.499994636989232
 50
360.0
  0
LINE
  5
EE
330
1F
100
AcDbEntity
  8
LAYER0001
  6
CONTINUOUS
 62
     9
100
AcDbLine
 10
41.48383718423209
 20
-12.6504037819044
 30
0.0
 11
27.97494718423209
 21
-12.6504037819044
 31
0.0
  0
INSERT
  5
EF
330
1F
100
AcDbEntity
  8
LAYER0001
 62
     9
100
AcDbBlockReference
  2
_OPEN30
 10
27.97494718423209
 20
-12.6504037819044
 30
0.0
 41
1.500001393912182
 42
1.499994636989232
 50
180.0
  0
LINE
  5
F0
330
1F
100
AcDbEntity
  8
LAYER0001
  6
CONTINUOUS
 62
     9
100
AcDbLine
 10
19.7749471842321
 20
-12.6504037819044
 30
0.0
 11
22.2749471842321
 21
-12.6504037819044
 31
0.0
  0
INSERT
  5
F1
330
1F
100
AcDbEntity
  8
LAYER0001
 62
     9
100
AcDbBlockReference
  2
_OPEN30
 10
22.2749471842321
 20
-12.6504037819044
 30
0.0
 41
1.500001393912182
 42
1.499994636989232
 50
360.0
  0
TEXT
  5
F2
330
1F
100
AcDbEntity
  8
LAYER0001
 62
     7
100
AcDbText
 10
-40.14689990764278
 20
16.84959621809561
 30
0.0
 40
2.0
  1
9.5
 41
0.7999999999999995
  7
FDASTYLE0
 72
     5
 11
-35.34689990764279
 21
16.84959621809561
 31
0.0
100
AcDbText
  0
TEXT
  5
F3
330
1F
100
AcDbEntity
  8
LAYER0001
 62
     7
100
AcDbText
 10
-35.26689990764279
 20
17.9220962180956
 30
0.0
 40
1.0725
  1
±0.2
 41
0.7619047619047623
  7
FDASTYLE0
 72
     5
 11
-31.83489990764279
 21
17.9220962180956
 31
0.0
100
AcDbText
  0
TEXT
  5
F4
330
1F
100
AcDbEntity
  8
LAYER0001
 62
     7
100
AcDbText
 10
8.449947184232094
 20
-18.61322463768116
 30
0.0
 40
2.0
  1
※22.85+0.2
 41
0.7843137254901962
  7
FDASTYLE0
 72
     5
 11
24.44994718423209
 21
-18.61322463768116
 31
0.0
100
AcDbText
  0
TEXT
  5
F5
330
1F
100
AcDbEntity
  8
LAYER0001
 62
     7
100
AcDbText
 10
29.92383718423209
 20
-4.150403781904396
 30
0.0
 40
2.0
  1
※3-1.7
 41
0.7741935483870969
  7
FDASTYLE0
 72
     5
 11
39.52383718423209
 21
-4.150403781904396
 31
0.0
100
AcDbText
  0
TEXT
  5
F6
330
1F
100
AcDbEntity
  8
LAYER0001
 62
     7
100
AcDbText
 10
40.02383718423209
 20
-2.850403781904396
 30
0.0
 40
1.3
  1
±0.05
 41
0.7692307692307697
  7
FDASTYLE0
 72
     5
 11
45.2238371842321
 21
-2.850403781904396
 31
0.0
100
AcDbText
  0
TEXT
  5
F7
330
1F
100
AcDbEntity
  8
LAYER0001
 62
     7
100
AcDbText
 10
29.92383718423209
 20
-8.150403781904396
 30
0.0
 40
2.0
  1
※3.55
 41
0.7692307692307692
  7
FDASTYLE0
 72
     5
 11
37.92383718423209
 21
-8.150403781904396
 31
0.0
100
AcDbText
  0
TEXT
  5
F8
330
1F
100
AcDbEntity
  8
LAYER0001
 62
     7
100
AcDbText
 10
29.92383718423209
 20
-12.1504037819044
 30
0.0
 40
2.0
  1
※5.7
 41
0.7619047619047618
  7
FDASTYLE0
 72
     5
 11
36.32383718423209
 21
-12.1504037819044
 31
0.0
100
AcDbText
  0
TEXT
  5
F9
330
1F
100
AcDbEntity
  8
LAYER0001
 62
     7
100
AcDbText
 10
36.82383718423209
 20
-10.8504037819044
 30
0.0
 40
1.3
  1
±0.1
 41
0.7619047619047612
  7
FDASTYLE0
 72
     5
 11
40.98383718423209
 21
-10.8504037819044
 31
0.0
100
AcDbText
  0
TEXT
  5
FA
330
1F
100
AcDbEntity
  8
LAYER0001
 62
     7
100
AcDbText
 10
-21.86888031475473
 20
-22.83108765875149
 30
0.0
 40
2.0
  1
※　モータ端面からの寸法　Dimension from motor end face
 41
0.7533632286995515
  7
FDASTYLE0
 72
     5
 11
45.33111968524527
 21
-22.83108765875149
 31
0.0
100
AcDbText
  0
LINE
  5
FB
330
1F
100
AcDbEntity
  8
0
  6
CONTINUOUS
 62
     9
100
AcDbLine
 10
28.27494718423209
 20
0.1995962180956088
 30
0.0
 11
33.47494718423209
 21
0.1995962180956088
 31
0.0
  0
LINE
  5
FC
330
1F
100
AcDbEntity
  8
0
  6
CONTINUOUS
 62
     9
100
AcDbLine
 10
28.1749471842321
 20
-0.6504037819043962
 30
0.0
 11
38.47494718423209
 21
-0.6504037819043962
 31
0.0
  0
LINE
  5
FD
330
1F
100
AcDbEntity
  8
0
  6
CONTINUOUS
 62
     9
100
AcDbLine
 10
-45.66089990764279
 20
-5.650403781904396
 30
0.0
 11
-10.78288151739115
 21
-5.650403781904396
 31
0.0
  0
LINE
  5
FE
330
1F
100
AcDbEntity
  8
0
  6
CONTINUOUS
 62
     9
100
AcDbLine
 10
3.6249471842321
 20
2.849596218095603
 30
0.0
 11
-18.57505281576789
 21
2.849596218095603
 31
0.0
  0
LINE
  5
FF
330
1F
100
AcDbEntity
  8
0
  6
CONTINUOUS
 62
     9
100
AcDbLine
 10
3.6249471842321
 20
8.849596218095602
 30
0.0
 11
-18.57505281576789
 21
8.849596218095602
 31
0.0
  0
LINE
  5
100
330
1F
100
AcDbEntity
  8
0
  6
CONTINUOUS
 62
     9
100
AcDbLine
 10
28.1749471842321
 20
12.3495962180956
 30
0.0
 11
29.48283981341257
 21
12.3495962180956
 31
0.0
  0
LINE
  5
101
330
1F
100
AcDbEntity
  8
0
  6
CONTINUOUS
 62
     9
100
AcDbLine
 10
31.65378759956152
 20
12.3495962180956
 30
0.0
 11
38.47494718423209
 21
12.3495962180956
 31
0.0
  0
LINE
  5
102
330
1F
100
AcDbEntity
  8
0
  6
CONTINUOUS
 62
     9
100
AcDbLine
 10
28.27494718423209
 20
11.4995962180956
 30
0.0
 11
29.48283981341257
 21
11.4995962180956
 31
0.0
  0
LINE
  5
103
330
1F
100
AcDbEntity
  8
0
  6
CONTINUOUS
 62
     9
100
AcDbLine
 10
31.65378759956152
 20
11.4995962180956
 30
0.0
 11
33.47494718423209
 21
11.4995962180956
 31
0.0
  0
LINE
  5
104
330
1F
100
AcDbEntity
  8
0
  6
CONTINUOUS
 62
     9
100
AcDbLine
 10
32.97494718423209
 20
0.1995962180956088
 30
0.0
 11
32.97494718423209
 21
11.4995962180956
 31
0.0
  0
INSERT
  5
105
330
1F
100
AcDbEntity
  8
0
 62
     9
100
AcDbBlockReference
  2
_OPEN30
 10
32.97494718423209
 20
0.1995962180956088
 30
0.0
 41
1.500001393912182
 42
1.499994636989232
 50
270.0
  0
INSERT
  5
106
330
1F
100
AcDbEntity
  8
0
 62
     9
100
AcDbBlockReference
  2
_OPEN30
 10
32.97494718423209
 20
11.4995962180956
 30
0.0
 41
1.500001393912182
 42
1.499994636989232
 50
90.0
  0
LINE
  5
107
330
1F
100
AcDbEntity
  8
0
  6
CONTINUOUS
 62
     9
100
AcDbLine
 10
37.97494718423209
 20
-0.6504037819043962
 30
0.0
 11
37.97494718423209
 21
12.3495962180956
 31
0.0
  0
INSERT
  5
108
330
1F
100
AcDbEntity
  8
0
 62
     9
100
AcDbBlockReference
  2
_OPEN30
 10
37.97494718423209
 20
-0.6504037819043962
 30
0.0
 41
1.500001393912182
 42
1.499994636989232
 50
270.0
  0
INSERT
  5
109
330
1F
100
AcDbEntity
  8
0
 62
     9
100
AcDbBlockReference
  2
_OPEN30
 10
37.97494718423209
 20
12.3495962180956
 30
0.0
 41
1.500001393912182
 42
1.499994636989232
 50
90.0
  0
LINE
  5
10A
330
1F
100
AcDbEntity
  8
0
  6
CONTINUOUS
 62
     9
100
AcDbLine
 10
-18.07505281576789
 20
2.849596218095603
 30
0.0
 11
-18.07505281576789
 21
8.849596218095602
 31
0.0
  0
INSERT
  5
10B
330
1F
100
AcDbEntity
  8
0
 62
     9
100
AcDbBlockReference
  2
_OPEN30
 10
-18.07505281576789
 20
2.849596218095603
 30
0.0
 41
1.500001393912182
 42
1.499994636989232
 50
270.0
  0
INSERT
  5
10C
330
1F
100
AcDbEntity
  8
0
 62
     9
100
AcDbBlockReference
  2
_OPEN30
 10
-18.07505281576789
 20
8.849596218095602
 30
0.0
 41
1.500001393912182
 42
1.499994636989232
 50
90.0
  0
LINE
  5
10D
330
1F
100
AcDbEntity
  8
0
  6
CONTINUOUS
 62
     9
100
AcDbLine
 10
-41.05783957650446
 20
4.999693526383224
 30
0.0
 11
-45.66089990764279
 21
-5.650403781904396
 31
0.0
  0
INSERT
  5
10E
330
1F
100
AcDbEntity
  8
0
 62
     9
100
AcDbBlockReference
  2
_OPEN30
 10
-41.05783957650446
 20
4.999693526383224
 30
0.0
 41
1.500001393912182
 42
1.499994636989232
 50
66.62559913435558
  0
INSERT
  5
10F
330
1F
100
AcDbEntity
  8
0
  6
CONTINUOUS
100
AcDbBlockReference
  2
DA_IMAGEDIMGROUP_1
 10
0.0
 20
0.0
 30
0.0
  0
INSERT
  5
110
330
1F
100
AcDbEntity
  8
0
  6
CONTINUOUS
100
AcDbBlockReference
  2
DA_IMAGEDIMGROUP_2
 10
0.0
 20
0.0
 30
0.0
  0
INSERT
  5
111
330
1F
100
AcDbEntity
  8
0
  6
CONTINUOUS
100
AcDbBlockReference
  2
DA_IMAGEDIMGROUP_3
 10
0.0
 20
0.0
 30
0.0
  0
INSERT
  5
112
330
1F
100
AcDbEntity
  8
0
  6
CONTINUOUS
100
AcDbBlockReference
  2
DC_GROUP_1
 10
0.0
 20
0.0
 30
0.0
  0
VIEWPORT
  5
47
330
1B
100
AcDbEntity
 67
     1
  8
0
100
AcDbViewport
 10
3.484801971627988
 20
0.0
 30
0.0
 40
294.8742112756247
 41
161.3700538106957
 68
     1
 69
     1
1001
ACAD
1000
MVIEW
1002
{
1070
    16
1010
0.0
1020
0.0
1030
0.0
1010
0.0
1020
0.0
1030
1.0
1040
0.0
1040
161.3700538106957
1040
3.484801971627988
1040
0.0
1040
50.0
1040
0.0
1040
0.0
1070
     0
1070
   100
1070
     0
1070
     1
1070
     0
1070
     0
1070
     0
1070
     0
1040
0.0
1040
0.0
1040
0.0
1040
0.5
1040
0.5
1040
0.0
1040
0.0
1070
     0
1002
{
1002
}
1002
}
  0
ENDSEC
  0
SECTION
  2
OBJECTS
  0
DICTIONARY
  5
C
330
0
100
AcDbDictionary
  3
ACAD_GROUP
350
D
  3
ACAD_LAYOUT
350
1A
  3
ACAD_MLINESTYLE
350
17
  3
ACAD_PLOTSETTINGS
350
19
  3
ACDBHEADERROUNDTRIPXREC
350
113
  0
DICTIONARY
  5
D
102
{ACAD_REACTORS
330
C
102
}
330
C
100
AcDbDictionary
  0
DICTIONARY
  5
1A
102
{ACAD_REACTORS
330
C
102
}
330
C
100
AcDbDictionary
  0
DICTIONARY
  5
17
102
{ACAD_REACTORS
330
C
102
}
330
C
100
AcDbDictionary
  3
STANDARD
350
18
  0
DICTIONARY
  5
19
102
{ACAD_REACTORS
330
C
102
}
330
C
100
AcDbDictionary
  0
DICTIONARY
  5
113
102
{ACAD_REACTORS
330
C
102
}
330
C
100
AcDbDictionary
  3
CEPSNTYPE
350
11C
  3
DIMSTYLEDATA
350
132
  3
FINGERPRINTGUID
350
11D
  3
HYPERLINKBASE
350
116
  3
INSUNITS
350
11B
  3
LAYOUTDICT
350
118
  3
LWETCUNION
350
11A
  3
PLOTSETDICT
350
119
  3
PSVPSCALE
350
11F
  3
PUCSBASE
350
122
  3
PUCSORGBACK
350
128
  3
PUCSORGBOTTOM
350
124
  3
PUCSORGFRONT
350
127
  3
PUCSORGLEFT
350
125
  3
PUCSORGRIGHT
350
126
  3
PUCSORGTOP
350
123
  3
PUCSORTHOREF
350
120
  3
PUCSORTHOVIEW
350
121
  3
STYLESHEET
350
117
  3
TSTACKALIGN
350
114
  3
TSTACKSIZE
350
115
  3
UCSBASE
350
12B
  3
UCSORGBACK
350
131
  3
UCSORGBOTTOM
350
12D
  3
UCSORGFRONT
350
130
  3
UCSORGLEFT
350
12E
  3
UCSORGRIGHT
350
12F
  3
UCSORGTOP
350
12C
  3
UCSORTHOREF
350
129
  3
UCSORTHOVIEW
350
12A
  3
VERSIONGUID
350
11E
  0
MLINESTYLE
  5
18
102
{ACAD_REACTORS
330
17
102
}
330
17
100
AcDbMlineStyle
  2
Standard
 70
     0
  3

 62
   256
 51
90.0
 52
90.0
 71
     2
 49
0.5
 62
   256
  6
BYLAYER
 49
-0.5
 62
   256
  6
BYLAYER
  0
XRECORD
  5
11C
102
{ACAD_REACTORS
330
113
102
}
330
113
100
AcDbXrecord
 90
        0
  0
XRECORD
  5
132
102
{ACAD_REACTORS
330
113
102
}
330
113
100
AcDbXrecord
1000
DSTYLE
1002
{
1070
   171
 70
     2
1070
   143
 40
25.4
1070
   274
 70
     2
1070
    41
 40
1.25
1070
   141
 40
0.09
1070
   271
 70
     4
1070
    43
 40
0.38
1070
    44
 40
0.18
1070
   278
 70
    46
1070
    42
 40
0.0625
1070
   147
 40
0.09
1070
    77
 70
     3
1070
   272
 70
     4
1070
    73
 70
     1
1070
   172
 70
     0
1070
    74
 70
     1
1070
   283
 70
     1
1070
   340
340
11
1070
   140
 40
0.18
1070
   284
 70
     0
1070
    78
 70
     0
1002
}
  0
XRECORD
  5
11D
102
{ACAD_REACTORS
330
113
102
}
330
113
100
AcDbXrecord
  1
{E5222376-3864-442B-B0D5-1E6ACB295993}
  0
XRECORD
  5
116
102
{ACAD_REACTORS
330
113
102
}
330
113
100
AcDbXrecord
  1

  0
XRECORD
  5
11B
102
{ACAD_REACTORS
330
113
102
}
330
113
100
AcDbXrecord
 90
        4
  0
XRECORD
  5
118
102
{ACAD_REACTORS
330
113
102
}
330
113
100
AcDbXrecord
340
1A
  0
XRECORD
  5
11A
102
{ACAD_REACTORS
330
113
102
}
330
113
100
AcDbXrecord
 90
    10781
  0
XRECORD
  5
119
102
{ACAD_REACTORS
330
113
102
}
330
113
100
AcDbXrecord
340
19
  0
XRECORD
  5
11F
102
{ACAD_REACTORS
330
113
102
}
330
113
100
AcDbXrecord
 40
0.0
  0
XRECORD
  5
122
102
{ACAD_REACTORS
330
113
102
}
330
113
100
AcDbXrecord
340
0
  0
XRECORD
  5
128
102
{ACAD_REACTORS
330
113
102
}
330
113
100
AcDbXrecord
 10
0.0
 20
0.0
 30
0.0
  0
XRECORD
  5
124
102
{ACAD_REACTORS
330
113
102
}
330
113
100
AcDbXrecord
 10
0.0
 20
0.0
 30
0.0
  0
XRECORD
  5
127
102
{ACAD_REACTORS
330
113
102
}
330
113
100
AcDbXrecord
 10
0.0
 20
0.0
 30
0.0
  0
XRECORD
  5
125
102
{ACAD_REACTORS
330
113
102
}
330
113
100
AcDbXrecord
 10
0.0
 20
0.0
 30
0.0
  0
XRECORD
  5
126
102
{ACAD_REACTORS
330
113
102
}
330
113
100
AcDbXrecord
 10
0.0
 20
0.0
 30
0.0
  0
XRECORD
  5
123
102
{ACAD_REACTORS
330
113
102
}
330
113
100
AcDbXrecord
 10
0.0
 20
0.0
 30
0.0
  0
XRECORD
  5
120
102
{ACAD_REACTORS
330
113
102
}
330
113
100
AcDbXrecord
340
0
  0
XRECORD
  5
121
102
{ACAD_REACTORS
330
113
102
}
330
113
100
AcDbXrecord
 70
     0
  0
XRECORD
  5
117
102
{ACAD_REACTORS
330
113
102
}
330
113
100
AcDbXrecord
  1

  0
XRECORD
  5
114
102
{ACAD_REACTORS
330
113
102
}
330
113
100
AcDbXrecord
 90
        1
  0
XRECORD
  5
115
102
{ACAD_REACTORS
330
113
102
}
330
113
100
AcDbXrecord
 90
       70
  0
XRECORD
  5
12B
102
{ACAD_REACTORS
330
113
102
}
330
113
100
AcDbXrecord
340
0
  0
XRECORD
  5
131
102
{ACAD_REACTORS
330
113
102
}
330
113
100
AcDbXrecord
 10
0.0
 20
0.0
 30
0.0
  0
XRECORD
  5
12D
102
{ACAD_REACTORS
330
113
102
}
330
113
100
AcDbXrecord
 10
0.0
 20
0.0
 30
0.0
  0
XRECORD
  5
130
102
{ACAD_REACTORS
330
113
102
}
330
113
100
AcDbXrecord
 10
0.0
 20
0.0
 30
0.0
  0
XRECORD
  5
12E
102
{ACAD_REACTORS
330
113
102
}
330
113
100
AcDbXrecord
 10
0.0
 20
0.0
 30
0.0
  0
XRECORD
  5
12F
102
{ACAD_REACTORS
330
113
102
}
330
113
100
AcDbXrecord
 10
0.0
 20
0.0
 30
0.0
  0
XRECORD
  5
12C
102
{ACAD_REACTORS
330
113
102
}
330
113
100
AcDbXrecord
 10
0.0
 20
0.0
 30
0.0
  0
XRECORD
  5
129
102
{ACAD_REACTORS
330
113
102
}
330
113
100
AcDbXrecord
340
0
  0
XRECORD
  5
12A
102
{ACAD_REACTORS
330
113
102
}
330
113
100
AcDbXrecord
 70
     0
  0
XRECORD
  5
11E
102
{ACAD_REACTORS
330
113
102
}
330
113
100
AcDbXrecord
  1
{FAEB1C32-E019-11D5-929B-00C0DF256EC4}
  0
ENDSEC
  0
EOF
